Hoş geldiniz sayın ziyaretçi Neredeyim ben?!

Web sitemiz; forum, günlük, video ve sohbet bölümlerinin yanı sıra; Skype ile ilgili Türkçe teknik destek makaleleri, resim galerileri, geniş içerikli ansiklopedik bilgiler ve çeşitli soru-cevap konuları sunmaktadır. Daima faydalı olmayı ilke edinmiş sitemize sizin de katkıda bulunmanız bizi son derece memnun eder :) Üye olmak için tıklayınız...


Sohbet (Flash Chat) Forumda Ara

Akor & Tab Bölümü (Gitar Akor ve Tabları Bölümü)

Bu konu Rock Müzik forumunda king nothing tarafından 21 Şubat 2009 (23:51) tarihinde açılmıştır.FacebookFacebook'ta Paylaş
115438 kez görüntülenmiş, 30 cevap yazılmış ve son mesaj 15 Eylül 2013 (16:23) tarihinde gönderilmiştir.
  • 5 üzerinden 5.00  |  Oy Veren: 1      
Cevap Yaz Yeni Konu Aç
Bu konuyu arkadaşlarınızla paylaşın:    « Önceki Konu | Sonraki Konu »      Yazdırılabilir Sürümü GösterYazdırılabilir Sürümü Göster    AramaBu Konuda Ara  
Eski 21 Şubat 2009, 23:51

Akor & Tab Bölümü (Gitar Akor ve Tabları Bölümü)

#1 (link)
king nothing
Ziyaretçi
king nothing - avatarı
Akor ve Tab nedir


AKOR:En az üç ayrı sesin bir arada tınladığı ses kümesidir. Bu üç sesin nasıl yapılanacağı yani üst üste konulacağı yapılan müziğin stiline veya müzikte o anda yaratılmak istenen etkiye göre belirlenir. Klasik tonal armonide akorlar, bir sesin üzerine üçlü aralıkların üstüste konulması ilkesiyle kurulurlar. Bu üçlülerin büyük (majör) veya küçük (minör) olmalarından doğan kombinasyonlarla da akorların cinsi belirlenir. Üç sesli akorlarda birbirinden farklı dört çeşit akor tipi kurulabilir.

Tablature (tab) ,gitar için özel bir nota sistemidir. Tab, bir gitar nota sistemi özelliği olarak var olmuştur. Tab nota sisteminde, nota bilmeye gerek duymadan, çok basit şekilde anlaşılır bir nota türü olup evrenseldir. Dünyanın her yerinde aynı şekilde kabul edilen kalıplar çerçevesinde okunur ve yazılır... Tab sisteminde yazılan akor veya notalar aşağıdaki bölümde belirttiğimiz şekilde gösterilir...
Aşağıda tab sisteminin ana teması belirtilmektedir. Tab sisteminde tel dizilişleri şekildeki gibidir.


Tab kullanırken karşımıza çıkacak olan işretler


> vurgulama yapılacak
/ teli yukarı çekiyoruz
teli aşagıya çekiyoruz
h Hammer-on/ pull off
: tekrar
† Harmonic
~ teli tiretin

Tab nasıl okunur?

Tablature (tab) ,gitar için özel bir müzik notasıdır.Tab bir gitar nota özelliği olarak var olmuştur.Tab nota özelliğini bir sistem olarak algılamak doğru olacaktır.Tab nota sisteminde, nota bilmeye gerek duymadan çok basit şekilde anlaşılır bir nota türü olup evrenseldir.Dünyanın Her yerinde aynı şekilde kabul edilen kalıplar çerçevesinde okunur ve yazılır...Tab Sisteminde yazılan akor ve ya notalar Aşağıdaki bölümde belirttiğimiz şekilde gösterilir...

Aşağıda Tab Sisteminin Ana teması belirtilmektedir.Tab Sisteminde Tel dizilişleri Şekildeki gibidir.

e|-------------------------------1. Tel-----|
B|-------------------------2. Tel-----------|
G|-------------------3. Tel-----------------|
D|-------------4. Tel-----------------------|
A|-------5. Tel-----------------------------|
E|-6. Tel-----------------------------------|


Yukarıdaki tabloda belirttiğimiz gibi artık tab sisteminde ne şekilde tel dizilişi bulunduğunu öğrendik.Şimdi ise yapmamız gereken Bu olayı bir örnekle açıklamak.

e|--------0-----------0-----|
B|------0---0-------0---0---|
G|---0--------0---0-------0-|
D|--------------------------|
A|--------------------------|
E|-0------------0-----------|
Metallica - Nothing Else Matters


Yukarıda Metallica Grubunun Nothing Else Matters isimli parçasının tabları yer almakta.Bu şarkıyı seçme amacım ilk düzey için gösterilmesi gereken 0 (sıfır) değerini içermesi. 0 değerinin anlamı ; 0 değerinin bulunduğu tele konulan 0 kadar boş vurmaktır. Demek istediğim şu ki ,Yukarıda bulunan parçada en başa denk gelen diğer deyişle bakıldığında size en yakın (sol baş) konumda bulunan 0 (sıfır) , E (6.tel) telinde yer almaktadır.Demek oluyor ki 6. tele bir kere boş vuracağız.Sonra ise sırayı takip ederek gittiğimizde karşımıza G (3.tel) çıkıyor.Bundan sonra sırasıyla ; B (2.tel) , e (1.tel) sonra tekrar B (2.tel) geliyor.Şimdi Pratik yapmaya başlayın... Tab da çalınan parçanın doğru çalıp çalmadığınızı kontrol etmek için Tab ın altındaki şarkının ismine tıklayınız.Mp3 formatındaki şarkıyı indirdikten sonra kendi çaldığınızla karşılaştırıp eksik yönleri tamamlayınız.

Şimdi ise başka örnekler ile öğrendiklerimiz pekiştirelim.Bunun yine Metallica grubunun One adlı parçasının tab sistemini inceliyoruz..

e|-----------------------------------------|
B|-----------------------------------------|
G|---------------------------------------0-|
D|---4---0-----4---0-----4---0-----4---0---|
A|-2---2---------------2---2---------------|
E|-----------3---4---------------3---3-----|
Metallica - One


Aynı şekilde bu parçada temel kuralları göz önüne alıp incelediğimizde karşımıza bilinmeyen bir konu çıkıyor.Bunlar 2 , 4 , 3 gibi sayılar.Bunların anlamı ise gitarın perdelerini belirtmektedir.2 no 'lu değer 2 numaralı perdeye basılması komutunu verir.Peki hangi teldeki 2 no'lu perdeye?Bunun yanıtı sandığınızdan çok çok basit.Yukarıdaki Tab da Belirtilmiş olan ilk 2 değeri 5.Telde verilmiş.Yani bu demek oluyor ki 5. telde 2 no 'lu perdeye bas.Yine Sırasıyla kısaca ele alırsak.Sırasıyla | 5. telde 2 no'lu perde | , | 4.telde 4 no'lu perde | , | 4.tele boş vur |, |6.telde 3.perde | vs...

Artık Tab Temeli Hakkında Geniş Bir bilgiye sahip olduk.Artık Tab ile Akor okuyup yazma faslına gelelim.Bunun için Artık 2 Dersimize geçebiliriz.

Ders 2

2.Dersimizde ise tab okuyarak akor nasıl bası caz onu göreceğiz.Genelde Elektro Gitar çalanlar için olan bu sistem sayesinde herkesin bilmediği akor kalıpları yaratarak akorları herkesle paylaşıp veya paylaşılanları anlamaya çalışıcaz.Peki gördüğümüz tabların akor olup olmadığını nasıl anlayacağız?Her zaman olduğu gibi bu sorunun cevabını da hemen verelimBir Tab da ,aynı sıra üstünde bulunan rakamlar onların akor olduğunu belirtir....hemen aşağıdaki örnekle ne demek istediğimizi daha iyi kavrayalım.

e|---------|
B|---------|
G|---------|
D|----5----|
A|----3----|
E|---------|


Yukarıda bulunan akor kalıbında üst üste yazılmış olan tab da 3 ve 5'inci tele basma komutu verilmiştir.Yukarıdaki resimde nasıl basılacağı belirtilmiştir.

Şimdi işi biraz daha zorlaştıralım.Bir örnek daha inceleyelim.Bu örneği ne şekilde çalacağımızı resimde belirttik. Sizde eğer hata varsa resim ile düzeltin.


e|----3----|
B|----0----|
G|----0----|
D|----0----|
A|----2----|
E|----3----|

Artık Pratik zamanı.Aşağıdaki akorlarla pratik yapın.

e|----0----|----0----|----2----|----0----|
B|----2----|----1----|----3----|----0----|
G|----2----|----0----|----2----|----1----|
D|----2----|----2----|----0----|----2----|
A|----0----|----3----|---------|----2----|
E|---------|---------|---------|----0----|

Sizde artık Tab Sisteminin Temel Özelliklerini Öğrendiniz. Tab ile artık akorları okuyabilirisiniz eğer isterseniz.En meşhur Akorları Çeşitlerine Akor Kalıpları Bölümünden Sahip olabilirsiniz.

Gerçekten istiyorsanız sonuna kadar savaşın.





Rapor Et
Reklam
Eski 22 Şubat 2009, 00:07

Akor & Tab Bölümü (Gitar Akor ve Tabları Bölümü)

#2 (link)
king nothing
Ziyaretçi
king nothing - avatarı
Şebnem Ferah - sil baştan (Akor)

** E
Gücün var mı sevgilim,
Dm **
Derin sularda inci tanesi aramaya?
E
Cesaretin kaldıysa
Dm **
Hala benle aşktan konuşmaya
E
Söyle canım sevgilim
Dm **
Hayat bize oyun oynuyor olabilir mi?
E
Yorgun gibi bir halin var
Dm **
Duyguların karışık olabilir mi?
** E
Sil baştan başlamak gerek bazen
** E
Hayatı sıfırlamak
Dm **
Sil baştan sevmek gerek bazen
E **
Herşeyi unutmak
** E
Sanki bugün son günmüş gibi
Dm **
Dolu dolu yaşamak istiyorum ben
** E
Her ne çıkarsa yoluma
Dm **
Selam verip yürümek istiyorum ben
** E
Sil baştan başlamak gerek bazen
** E
Hayatı sıfırlamak
Dm **
Sil baştan sevmek gerek bazen
E **
Herşeyi unutmak


Rapor Et
Eski 22 Şubat 2009, 00:16

Akor & Tab Bölümü (Gitar Akor ve Tabları Bölümü)

#3 (link)
king nothing
Ziyaretçi
king nothing - avatarı
İron Maiden - Rainmaker ( Tab )

Gtrs I, IV
|-------------------------|-----------------------------|
|-------------15----------|-----------------------------|
|----------14----------17-|-(17)-------15-(15)-12-14----|
|-12-14-15-------12-14----|------12-14---------------15-|
|-------------------------|-----------------------------|
|-------------------------|-----------------------------|
|
| Gtrs II, III
| PM---------------| PM-|
|-------------------------|-----------------------------|
|-------------------------|-----------------------------|
|-------------------------|-----------------------------|
|--7--7--7--7--7--7--7--3-|--(3)--3--3------3---3--3----|
|--5--5--5--5--5--5--5--1-|--(1)--1--1------1---1--1----|
|-------------------------|-----------------------------|


D5 C5
|-------------------------|-----------------------------|
|-------------15----------|-----------------------------|
|----------14----------17-|-(17)-------15-(15)-12-14----|
|-12-14-15-------12-14----|------12-14---------------15-|
|-------------------------|-----------------------------|
|-------------------------|-----------------------------|
|
| PM---------------| PM-|
|-------------------------|-----------------------------|
|-------------------------|-----------------------------|
|-------------------------|-----------------------------|
|--7--7--7--7--7--7--7--5-|--(5)--5--5------5---5--5----|
|--5--5--5--5--5--5--5--3-|--(3)--3--3------3---3--3----|
|-------------------------|-----------------------------|


D5 Bb5 C5
|-------------------------|-----------------------------|
|-------------15----------|-----------------------------|
|----------14----------17-|-(17)-------15-(15)-12-14----|
|-12-14-15-------12-14----|------12-14---------------15-|
|-------------------------|-----------------------------|
|-------------------------|-----------------------------|
|
| PM---------------| PM-|
|-------------------------|-----------------------------|
|-------------------------|-----------------------------|
|-------------------------|-----------------------------|
|--7--7--7--7--7--7--7--3-|--(3)--3--3------3---3--3--5-|
|--5--5--5--5--5--5--5--1-|--(1)--1--1------1---1--1--3-|
|-------------------------|-----------------------------|


D5
|--------------------------|---------------------------|
|--------------15----------|---------------15----------|
|-----------14----14-------|------------14----14-------|
|-12--14-15----------15-12-|-(12)-14-15----------15-12-|
|--------------------------|---------------------------|
|--------------------------|---------------------------|
|
| PM---------------| PM------------|
|--------------------------|---------------------------|
|--------------------------|---------------------------|
|--------------------------|-------------------------2-|
|-(5)--5--5--5--5--5--5--5-|--(5)--5--5--5--5--5--5--0-|
|-(3)--3--3--3--3--3--3--3-|--(3)--3--3--3--3--3--3----|
|--------------------------|---------------------------|


Verse 1 0:11
Bb5 F5
|--------------------|--------------------|
|--------------------|--------------------|
|--------------------|--------------------|
|-(12)---------------|--------------------|
|--------------------|--------------------|
|--------------------|--------------------|
|
| Gtr II
| PM
|--------------------|--------------------|
|--------------------|--------------------|
|--(2)--2--2-2-(2)-3-|-(3)--3---3-3-(3)-5-|
|--(0)--0--0-0-(0)-3-|-(3)--3---3-3-(3)-3-|
|--------------------|--------------------|
|--------------------|--------------------|
|
| Gtr III
| PM--|
|--------------------|--------------------|
|--------------------|--------------------|
|--(2)-------------3-|-(3)--3-3-3-3-(3)-5-|
|--(0)-------------3-|-(3)--3-3-3-3-(3)-3-|
|------------------5-|-(5)--------------3-|
|--------------------|--------------------|


C D5
|--------------------|--------------------|
|--------------------|--------------------|
|--------------------|--------------------|
|--------------------|--------------------|
|--------------------|--------------------|
|--------------------|--------------------|
|
| PM PM
|--------------------|--------------------|
|--------------------|--------------------|
|-(5)--5---5-5-(5)-5-|-(5)--5---5-5-(5)-2-|
|-(3)--3---3-3-(3)-2-|-(2)--2---2-2-(2)-0-|
|--------------------|--------------------|
|--------------------|--------------------|
|
| PM--| PM--|
|--------------------|--------------------|
|--------------------|--------------------|
|-(5)--5-5-5-5-(5)-5-|-(5)--5-5-5-5-(5)-2-|
|-(3)--3-3-3-3-(3)-2-|-(2)--2-2-2-2-(2)-0-|
|-(3)--------------3-|-(3)----------------|
|--------------------|--------------------|


Bb5 F5
Gtr II
PM
|--------------------|--------------------|
|--------------------|--------------------|
|-(2)--2---2-2-(2)-3-|-(3)--3---3-3-(3)-5-|
|-(0)--0---0-0-(0)-3-|-(3)--3---3-3-(3)-3-|
|--------------------|--------------------|
|--------------------|--------------------|
|
| Gtr III
| PM--| PM------|
|--------------------|--------------------|
|--------------------|--------------------|
|-(2)--2-2-2-2-(2)-3-|-(3)--3-3-3-3--3--5-|
|-(0)--0-0-0-0-(0)-3-|-(3)--3-3-3-3--3--3-|
|------------------5-|-(5)--------------3-|
|--------------------|--------------------|


C D5
PM PM
|--------------------|--------------------|
|--------------------|--------------------|
|-(5)--5---5-5-(5)-5-|-(5)--5---5-5-(5)-2-|
|-(3)--3---3-3-(3)-2-|-(2)--2---2-2-(2)-0-|
|--------------------|--------------------|
|--------------------|--------------------|
|
| PM--| PM------|
|--------------------|--------------------|
|--------------------|--------------------|
|-(5)--5-5-5-5-(5)-5-|-(5)--5-5-5-5--5--2-|
|-(3)--3-3-3-3-(3)-2-|-(2)--2-2-2-2--2--0-|
|-(3)--------------3-|-(3)----------------|
|--------------------|--------------------|


Bb5 F5
PM
|--------------------|-------------------|
|--------------------|-------------------|
|-(2)--2---2-2-(2)-3-|-(3)--3--3-3-(3)-5-|
|-(0)--0---0-0-(0)-3-|-(3)--3--3-3-(3)-3-|
|--------------------|-------------------|
|--------------------|-------------------|
|
| PM--| PM
|--------------------|-------------------|
|------------------1-|-(1)--1--1-1-(1)---|
|-(2)--2-2-2-2-(2)-3-|-(3)--3--3-3-(3)-5-|
|-(0)--0-0-0-0-(0)-3-|-(3)-------------3-|
|--------------------|-----------------3-|
|--------------------|-------------------|


C Bb5
PM PM
|-------------------|--------------------|
|-------------------|--------------------|
|-(5)--5--5-5-(5)-5-|-(5)--5---5-5-(5)-3-|
|-(3)--3--3-3-(3)-2-|-(2)--2---2-2-(2)-3-|
|-------------------|--------------------|
|-------------------|--------------------|
|
| PM PM------|
|-------------------|--------------------|
|-------------------|--------------------|
|-(5)--5--5-5-(5)-5-|-(5)--5-5-5-5--5--3-|
|-(3)--3--3-3-(3)-2-|-(2)--2-2-2-2--2--3-|
|-(3)-------------3-|-(3)--------------1-|
|-------------------|--------------------|


C5 D5
|----------------|-------------------|-------------------|------------------|
|----------------|-------------------|-------------------|----------------3-|
|-(3)--3--3-3-3--|--3---3--3-3-(3)-5-|-(5)--5--5-5-(5)-5-|-(5)--5-5-5-5-5-2-|
|-(3)--3--3-3-3--|--3---3--3-3-(3)-5-|-(5)--5--5-5-(5)-5-|-(5)--5-5-5-5-5-0-|
|----------------|--1--------------3-|-(3)-------------3-|-(3)--------------|
|----------------|-------------------|-------------------|------------------|
|
|----------------|-------------------|-------------------|------------------|
|----------------|-------------------|-------------------|----------------3-|
|--3-------------|-(3)-------------5-|-(5)---------------|-(5)------------2-|
|-(3)------------|-(3)-------------5-|-(5)---------------|-(5)------------0-|
|-(1)------------|-(1)-------------3-|-(3)---------------|-(3)--------------|
|----------------|-------------------|-------------------|------------------|


Chorus 0:33
F5 Bb5 C5 G5
Gtrs II, III
|-------------|-------------|-------------|-------------|
|-(3)-------6-|-(6)---------|-------------|-------------|
|-(2)-------5-|-(5)-------3-|-(3)-------5-|-(5)-------0-|
|-(0)-------3-|-(3)-------3-|-(3)-------5-|-(5)-------0-|
|-----------3-|-(3)-------1-|-(1)-------3-|-(3)---------|
|-------------|-------------|-------------|-------------|


Bb5 F5 C5 D5
|-------------|-------------|-------------|-------------|
|-------------|-------------|-------------|-----------3-|
|-(0)-------3-|-(3)---------|-----------5-|-(5)-------2-|
|-(0)-------3-|-(3)-------3-|-(3)-------5-|-(5)-------0-|
|-----------1-|-(1)-------3-|-(3)-------3-|-(3)---------|
|-------------|-----------1-|-(1)---------|-------------|


F5 Bb5 C5 G5
|-------------|-------------|-------------|-------------|
|-(3)---------|-------------|-------------|-------------|
|-(2)---------|-----------3-|-(3)-------5-|-(5)-------0-|
|-(0)-------3-|-(3)-------3-|-(3)-------5-|-(5)-------0-|
|-----------3-|-(3)-------1-|-(1)-------3-|-(3)---------|
|-----------1-|-(1)---------|-------------|-------------|


Bb5 C5 Dm
|-------------|-------------|------------|-----------5-|
|-------------|-------------|------------|-----------6-|
|-(0)-------3-|-(3)-------5-|-(5)--------|-(5)-------7-|
|-(0)-------3-|-(3)-------5-|-(5)--------|-(5)-------0-|
|-----------1-|-(1)-------3-|-(3)--------|-(3)---------|
|-------------|-------------|------------|-------------|


Bridge 0:56
Dsus4 Dm
PM-----| PM-----|
|-(5)-------------(5)-|-(5)-------------(5)-|
|-(6)--------------8--|-(8)--------------6--|
|-(7)--------------7--|-(7)--------------7--|
|-(0)--0--0-0-(0)--0--|-(0)--0--0-0-(0)--0--|
|---------------------|---------------------|
|---------------------|---------------------|


Dsus4 Bb
PM-----| PM-----|
|-(5)---------------|-------------------|
|-(6)-------------8-|-(8)-------------6-|
|-(7)-------------7-|-(7)-------------7-|
|-(0)--0--0-0-(0)-0-|-(0)--0--0-0-(0)-8-|
|-------------------|-------------------|
|-------------------|-------------------|


Bb6 F5 C Dm
|-------------------|-------------------|-------------------|-----------5-|
|-(6)-------------8-|-(8)-------------6-|-(6)-------------5-|-(5)-------6-|
|-(7)-------------7-|-(7)-------------5-|-(5)-------------5-|-(5)-------7-|
|-(8)--0--0-0-(0)-8-|-(8)--0--0-0-(0)-3-|-(3)-------------5-|-(5)-------0-|
|-------------------|-------------------|------3--3-3-(3)---|-------------|
|-------------------|-------------------|-------------------|-------------|


Dsus4 Dm
PM-----| PM-----|
|-(5)-------------(5)-|-(5)-------------(5)-|
|-(6)--------------8--|-(8)--------------6--|
|-(7)--------------7--|-(7)--------------7--|
|-(0)--0--0-0-(0)--0--|-(0)--0--0-0-(0)--0--|
|---------------------|---------------------|
|---------------------|---------------------|


Dsus4 Bb
PM-----| PM-----|
|-(5)---------------|-------------------|
|-(6)-------------8-|-(8)-------------6-|
|-(7)-------------7-|-(7)-------------7-|
|-(0)--0--0-0-(0)-0-|-(0)--0--0-0-(0)-8-|
|-------------------|-------------------|
|-------------------|-------------------|


Bb6 F5 C D5
|-------------------|-------------------|-------------------|-------------|
|-(6)-------------8-|-(8)-------------6-|-(6)-------------5-|-(5)-------3-|
|-(7)-------------7-|-(7)-------------5-|-(5)-------------5-|-(5)-------2-|
|-(8)--0--0-0-(0)-8-|-(8)--0--0-0-(0)-3-|-(3)-------------5-|-(5)-------0-|
|-------------------|-------------------|------3--3-3-(3)---|-------------|
|-------------------|-------------------|-------------------|-------------|


Chorus 1:18
F5 Bb5 C5 G5
|-------------|-------------|-------------|-------------|
|-(3)-------6-|-(6)---------|-------------|-------------|
|-(2)-------5-|-(5)-------3-|-(3)-------5-|-(5)-------0-|
|-(0)-------3-|-(3)-------3-|-(3)-------5-|-(5)-------0-|
|-----------3-|-(3)-------1-|-(1)-------3-|-(3)---------|
|-------------|-------------|-------------|-------------|


Bb5 F5 C5 D5
|-------------|-------------|-------------|---------------------------|
|-------------|-------------|-------------|-------------------------3-|
|-(0)-------3-|-(3)---------|-----------5-|-(5)---------------------2-|
|-(0)-------3-|-(3)-------3-|-(3)-------5-|-(5)---------------------0-|
|-----------1-|-(1)-------3-|-(3)-------3-|-(3)-----------------------|
|-------------|-----------1-|-(1)---------|---------------------------|
|
| Gtr I
|-------------|-------------|-------------|-----8-----(8)-8-8-8-8-8-8-|
|-------------|-------------|-------------|-----8b10==(8)-8-8-8-8-8-8-|
|-------------|-------------|-------------|---------------------------|
|-------------|-------------|-------------|---------------------------|
|-------------|-------------|-------------|---------------------------|
|-------------|-------------|-------------|---------------------------|


F5 Bb5 C5 G5
|------------------|-------------|-------------|-------------|
|-(3)--------------|-------------|-------------|-------------|
|-(2)--------------|-----------3-|-(3)-------5-|-(5)-------0-|
|-(0)------------3-|-(3)-------3-|-(3)-------5-|-(5)-------0-|
|----------------3-|-(3)-------1-|-(1)-------3-|-(3)---------|
|----------------1-|-(1)---------|-------------|-------------|
|
|-(8)------(8)-----|-------------|-------------|-------------|
|-(8)------(8)r\---|-------------|-------------|-------------|
|------------------|-------------|-------------|-------------|
|------------------|-------------|-------------|-------------|
|------------------|-------------|-------------|-------------|
|------------------|-------------|-------------|-------------|


Bb5 C5
|-------------|-------------|------------------------------------|
|-------------|-------------|------------------------------------|
|-(0)-------3-|-(3)-------5-|-(5)--------------------------------|
|-(0)-------3-|-(3)-------5-|-(5)--------------------------------|
|-----------1-|-(1)-------3-|-(3)--------------------------------|
|-------------|-------------|------------------------------------|
|
|-------------|-------------|------------------------10-------10-|
|-------------|-------------|-----10--------------10----10-13----|
|-------------|-------------|--------12b14==(12)r----------------|
|-------------|-------------|------------------------------------|
|-------------|-------------|------------------------------------|
|-------------|-------------|------------------------------------|


Dm
|------------------------5------------|
|------------------------6------------|
|-(5)--------------------7------------|
|-(5)--------------------0------------|
|-(3)---------------------------------|
|-------------------------------------|
|
|--------10-------10------------------|
|-10--13----10-13----10-13b15==(13)---|
|-------------------------------------|
|-------------------------------------|
|-------------------------------------|
|-------------------------------------|


Bridge 1:40
Dsus4 Dm
PM-----| PM-----|
|--(5)--------------(5)-|-(5)-------------(5)-|
|--(6)---------------8--|-(8)--------------6--|
|--(7)---------------7--|-(7)--------------7--|
|--(0)---0--0-0-(0)--0--|-(0)--0--0-0-(0)--0--|
|-----------------------|---------------------|
|-----------------------|---------------------|
|
|-----------------------|---------------------|
|-(13)r-----------------|---------------------|
|-----------------------|---------------------|
|-----------------------|---------------------|
|-----------------------|---------------------|
|-----------------------|---------------------|


Dsus4 Bb
PM-----| PM-----|
|-(5)---------------|-------------------|
|-(6)-------------8-|-(8)-------------6-|
|-(7)-------------7-|-(7)-------------7-|
|-(0)--0--0-0-(0)-0-|-(0)--0--0-0-(0)-8-|
|-------------------|-------------------|
|-------------------|-------------------|
|
|-------------------|-------------------|
|-------------------|-------------------|
|-------------------|-------------------|
|-------------------|-------------------|
|-------------------|-------------------|
|-------------------|-------------------|


Bb6 F5 C Dm
|--------------------|--------------------|--------------------|-----------5--|
|-(6)-------------8--|-(8)-------------6--|-(6)-------------5--|-(5)-------6--|
|-(7)-------------7--|-(7)-------------5--|-(5)-------------5--|-(5)-------7--|
|-(8)--0--0-0-(0)-8--|-(8)--0--0-0-(0)-3--|-(3)-------------5--|-(5)-------0--|
|--------------------|--------------------|------3--3-3-(3)----|--------------|
|--------------------|--------------------|--------------------|--------------|


Dsus4 Dm
PM-----| PM-----|
|-(5)-------------(5)-|-(5)-------------(5)-|
|-(6)--------------8--|-(8)--------------6--|
|-(7)--------------7--|-(7)--------------7--|
|-(0)--0--0-0-(0)--0--|-(0)--0--0-0-(0)--0--|
|---------------------|---------------------|
|---------------------|---------------------|


Dsus4 Bb
PM-----| PM-----|
|-(5)---------------|-------------------|
|-(6)-------------8-|-(8)-------------6-|
|-(7)-------------7-|-(7)-------------7-|
|-(0)--0--0-0-(0)-0-|-(0)--0--0-0-(0)-8-|
|-------------------|-------------------|
|-------------------|-------------------|


Bb6 F5
Gtr I
|-------------------|-------------------|
|-------------------|-------------------|
|-------------------|-------------------|
|-------------------|-------------------|
|-------------------|-------------------|
|-------------------|-------------------|
|
| Gtr II
|-------------------|-------------------|
|-(6)-------------8-|-(8)-------------6-|
|-(7)-------------7-|-(7)-------------5-|
|-(8)--0--0-0-(0)-8-|-(8)--0--0-0-(0)-3-|
|-------------------|-------------------|
|-------------------|-------------------|
|
| Gtr III
|-------------------|-------------------|
|--6--------------8-|-(8)-------------6-|
|--7--------------7-|-(7)-------------5-|
|--8---0--0-0-(0)-8-|-(8)--0--0-0-(0)-3-|
|-------------------|-------------------|
|-------------------|-------------------|


C D5
|-------------------|-----------8b10==(8)-|
|-------------------|---------------------|
|-------------------|---------------------|
|-------------------|---------------------|
|-------------------|---------------------|
|-------------------|---------------------|
|
|-------------------|---------------------|
|-(6)-------------5-|-(5)-----------------|
|-(5)-------------5-|-(5)-------7---------|
|-(3)-------------5-|-(5)-------7---------|
|------3--3-3-(3)---|-----------5---------|
|-------------------|---------------------|
|
|-------------------|---------------------|
|-(6)-------------5-|-(5)-----------------|
|-(5)-------------5-|-(5)-----------------|
|-(3)-------------5-|-(5)-----------------|
|------3--3-3-(3)---|-----------5---------|
|-------------------|-----------5---------|


Guitar Solo 2:02
Bb5 C5 F5
Gtr I
|-(8)r-8b10==(8)-------(8)r-8b10==|=(8)r-8----------8------|------------5h6p5---5h6h==8-|
|---------------------------------|--------10-8-(8)---10-8-|-(8)----6-8-------8---------|
|---------------------------------|------------------------|-----/7---------------------|
|---------------------------------|------------------------|----------------------------|
|---------------------------------|------------------------|----------------------------|
|---------------------------------|------------------------|----------------------------|
|
| Gtr II
|---------------------------------|------------------------|----------------------------|
|---------------------------------|------------------------|----------------------------|
|-(7)-----------------------------|----------------------5-|-(5)------------------------|
|-(7)---------7------7------3-----|-(3)-----3----3--3--3-5-|-(5)----5-------5---5---3---|
|-(5)---------5------5------1-----|-(1)--1--1-1--1--1--1-3-|-(3)--3-3-3-3---3---3---3---|
|------5---------5-5--------------|------------------------|------------------------1---|
|
| ~~~~ ~~~~ ~~~
|---------------------------------|------------------------|----------------------------|
|---------------------------------|------------------------|----------------------------|
|---------------------------------|------------------------|----------------------------|
|---------------------------------|------------------------|----------------------------|
|-(5)-----------------------1-----|-(1)------------------3-|-(3)--------------------3---|
|-(5)-----------------------1-----|-(1)------------------3-|-(3)--------------------1---|


G5 D5
|-10---------------10h12p10--------------10-------------------------------------|
|-----13b15==(13)r----------13b15==(13)r-----13p10----13p10---------------------|
|--------------------------------------------------12-------12b14==(12)r-(12)---|
|-------------------------------------------------------------------------------|
|-------------------------------------------------------------------------------|
|-------------------------------------------------------------------------------|
|
|-------------------------------------------------------------------------------|
|-------------------------------------------------------------------------------|
|------------------------------------------------------------7------------------|
|-(3)------------------------5-----------(5)-----------------7------------------|
|-(3)------------------------5-----------(5)-----------------5------------------|
|-(1)--1---------------1-----3-----------(3)-----3-----3------------------------|
|
|-------------------------------------------------------------------------------|
|-------------------------------------------------------------------------------|
|-------------------------------------------------------------------------------|
|-------------------------------------------------------------------------------|
|-(3)------------------------5-----------(5)-----------------5------------------|
|-(1)------------------------3-----------(3)-----------------5------------------|


Bb5 C5
~~~~
|-------------------------------10h13p==10-|-12p=10--------------10h==13p10----------13h15-15b17==(15)r-15-15b17==|
|------------------13b15==(13)r------------|--------13b15==(13)r------------10-13h15------------------------------|
|-(12)-------(12)\-------------------------|----------------------------------------------------------------------|
|------------------------------------------|----------------------------------------------------------------------|
|------------------------------------------|----------------------------------------------------------------------|
|------------------------------------------|----------------------------------------------------------------------|
|
|------------------------------------------|----------------------------------------------------------------------|
|------------------------------------------|----------------------------------------------------------------------|
|--(7)-------------------------------------|-------------------------------------------------------------5--------|
|--(7)---7----------7-----------------3----|-(3)--------------------3-----------3-----3-----3------------5--------|
|--(5)---5----------5-----------------1----|-(1)-----1--------------1-----1-----1-----1-----1------------3--------|
|------5---5---5---------------------------|----------------------------------------------------------------------|
|
| ~~~~ ~~~
|------------------------------------------|----------------------------------------------------------------------|
|------------------------------------------|----------------------------------------------------------------------|
|------------------------------------------|----------------------------------------------------------------------|
|------------------------------------------|----------------------------------------------------------------------|
|---5---------------------------------1----|-(1)---------------------------------------------------------3--------|
|---5---------------------------------1----|-(1)---------------------------------------------------------3--------|


D5
|-(15)r-------15h17p15----15-17-|-18--17h18p17-15-17-17p15----15h17p15----15h17p15---|
|----------------------18-------|--------------------------18----------18------------|
|-------------------------------|----------------------------------------------------|
|-------------------------------|----------------------------------------------------|
|-------------------------------|----------------------------------------------------|
|-------------------------------|----------------------------------------------------|
|
|-------------------------------|----------------------------------------------------|
|-------------------------------|----------------------------------------------------|
|--(5)--------------------------|------------------------------------------7---------|
|--(5)----5-------------5--5--5-|--5---5--------5--5--5-----5--------5-----7---------|
|--(3)--3-3-3-----3-----3--3--3-|--3---3--------3--3--3-----3--------3-----5---------|
|-------------------------------|----------------------------------------------------|
|
| ~~~~~
|-------------------------------|----------------------------------------------------|
|-------------------------------|----------------------------------------------------|
|-------------------------------|----------------------------------------------------|
|-------------------------------|----------------------------------------------------|
|--(3)--------------------------|-(3)--------------------------------------5---------|
|--(3)--------------------------|-(3)--------------------------------------5---------|


Bb5
|-17p=15----15h17p==15-17p15----15h==17p15----15h17p15----15h|
|--------18------------------18------------18----------18----|
|------------------------------------------------------------|
|------------------------------------------------------------|
|------------------------------------------------------------|
|------------------------------------------------------------|
|
|------------------------------------------------------------|
|------------------------------------------------------------|
|-(7)--------------------------------------------------------|
|-(7)-------------7-------------------------7-----------3----|
|-(5)-------------5-------------------------5-----------1----|
|---------5----------------5-------5-------------------------|
|
| ~~~
|------------------------------------------------------------|
|------------------------------------------------------------|
|------------------------------------------------------------|
|------------------------------------------------------------|
|-(5)---------------------------------------------------1----|
|-(5)---------------------------------------------------1----|


C5
|-17--18---18b20==(18)r18-18b20==(18)-(18)r==(18)-(18)-18--|
|----------------------------------------------------------|
|----------------------------------------------------------|
|----------------------------------------------------------|
|----------------------------------------------------------|
|----------------------------------------------------------|
|
|----------------------------------------------------------|
|----------------------------------------------------------|
|-------------------------------------------------------5--|
|-(3)---------------3-------------------3--3---3--------5--|
|-(1)----1----------1------1------------1--1---1--------3--|
|----------------------------------------------------------|
|
| ~~~
|----------------------------------------------------------|
|----------------------------------------------------------|
|----------------------------------------------------------|
|----------------------------------------------------------|
|-(1)---------------------------------------------------3--|
|-(1)---------------------------------------------------3--|


F5 G5 D5
|-(18)-17-15-17-17h18p17p15-17p15-|----------------------------|
|---------------------------------|-18--17-15-15-(15)\---13s15-|
|---------------------------------|----------------------------|
|---------------------------------|----------------------------|
|---------------------------------|----------------------------|
|---------------------------------|----------------------------|
|
|---------------------------------|----------------------------|
|---------------------------------|----------------------------|
|--(5)----------------------------|--------------------------7-|
|--(5)-----5-----------5-----5--3-|-(3)--------5--(5)--------7-|
|--(3)--3--3--3--3-----3-----3--3-|-(3)--------5--(5)--------5-|
|-------------------------------1-|-(1)--1--1--3--(3)--3--3----|
|
| ~~~~
|---------------------------------|----------------------------|
|---------------------------------|----------------------------|
|---------------------------------|----------------------------|
|---------------------------------|----------------------------|
|--(3)--------------------------3-|-(3)--------5--(5)--------5-|
|--(3)--------------------------1-|-(1)--------3--(3)--------5-|


Bb5 C5
|---------------------15-15h17h18-|-17p=15-17p15----------------------17-|
|-(15)-17-18-15-17-18-------------|--------------18p17-18p17-15-17-18----|
|---------------------------------|--------------------------------------|
|---------------------------------|--------------------------------------|
|---------------------------------|--------------------------------------|
|---------------------------------|--------------------------------------|
|
|---------------------------------|--------------------------------------|
|---------------------------------|--------------------------------------|
|--(7)----------------------------|------------------------------------5-|
|--(7)-----7--------7--------3----|-(3)-----------3-----------3--3--3--5-|
|--(5)-----5--------5--------1----|-(1)-----1-----1-----1-----1--1--1--3-|
|-------5-----5--5----------------|--------------------------------------|
|
| ~~~~ ~~~
|---------------------------------|--------------------------------------|
|---------------------------------|--------------------------------------|
|---------------------------------|--------------------------------------|
|---------------------------------|--------------------------------------|
|--(5)-----------------------1----|-(1)--------------------------------3-|
|--(5)-----------------------1----|-(1)--------------------------------3-|


B5
Gtrs II, III
|
/

|-----------20-------20----|-----20----20-(20)-----(20)\-|
|-18--17-18----17-18----17-|-18-----17-------------------|
|--------------------------|-----------------------------|
|--------------------------|-----------------------------|
|--------------------------|-----------------------------|
|--------------------------|-----------------------------|
|
|--------------------------|-----------------------------|
|--------------------------|-----------------------------|
|-(5)----------------------|-----------------------------|
|-(5)-----5--------5--5--5-|--5---5--5--5---5--5-5-------|
|-(3)--3--3--3--3--3--3--3-|--3---3--3--3---3--3-3-------|
|--------------------------|-----------------------------|
|
| ~~~
|--------------------------|-----------------------------|
|--------------------------|-----------------------------|
|--------------------------|-----------------------------|
|--------------------------|-----------------------------|
|-(3)----------------------|-(3)-------------------------|
|-(3)----------------------|-(3)-------------------------|


Interlude 2:24
B5 F#5 G5 A5
| | | | | | | | ||| | | | |
/ / / / / / / / /// / / / /

~~~~~~~~~~~
|------9-10-9-------|-----------------------|
|---12--------12----|--------------10-12-10-|
|----------------11-|-(11)----(11)----------|
|-------------------|-----------------------|
|-------------------|-----------------------|
|-------------------|-----------------------|
|
| Gtr IV
| ~~~~~~~~~~~
|-------------------|-----------------------|
|---------7---------|-----------------------|
|----7-9----9--7--7-|--(7)-----(7)--6--7--6-|
|-------------------|-----------------------|
|-------------------|-----------------------|
|-------------------|-----------------------|


D5 E5 B5
| ||| | | | | | | | | | | | |
/ /// / / / / / / / / / / / /

~~~~~~~~~~~
|--------------------|----------------------|
|-(10)----(10)-8-7-8-|-(8)-7---7-(7)--------|
|--------------------|-------9-------9-7-7--|
|--------------------|----------------------|
|--------------------|----------------------|
|--------------------|----------------------|
|
| ~~~~~~~~~~~
|--------------------|----------------------|
|--------------------|----------------------|
|--(6)-----(6)-6-6-7-|-(7)-6---6-(6)--------|
|--------------------|-------9-------9-7-9--|
|--------------------|----------------------|
|--------------------|----------------------|


F#5 G5 A5
| | | | | | | | ||| | | | |
/ / / / / / / / /// / / / /

~~~~~~~~~~~
|---------9-10-9----/14-|-(14)----(14)-12-10-12-|
|------12--------12-----|-----------------------|
|-(7)-------------------|-----------------------|
|-----------------------|-----------------------|
|-----------------------|-----------------------|
|-----------------------|-----------------------|
|
| ~~~~~~~~~~~
|-----------------------|-----------------------|
|------------7----------|-----------------------|
|-------7-9----9--7---7-|--(7)-----(7)--6--7--6-|
|-(9)-------------------|-----------------------|
|-----------------------|-----------------------|
|-----------------------|-----------------------|


B5
| ||| | | | | | | | | | | | |
/ /// / / / / / / / / / / / /

~~~~~~~~~~~
|-(12)----(12)-10-9-10-|-(10)-9----9-(9)-----------|
|----------------------|--------12-------12-10-12--|
|----------------------|---------------------------|
|----------------------|---------------------------|
|----------------------|---------------------------|
|----------------------|---------------------------|
|
| ~~~~~~~~~~~
|----------------------|---------------------------|
|----------------------|---------------------------|
|--(6)-----(6)---------|-----------------------/7--|
|---------------9-7--9-|--(9)-7--5-7-(7)--5--------|
|----------------------|---------------------9-----|
|----------------------|---------------------------|


F#5 G5 A5
| | | | | | | | ||| | | | |
/ / / / / / / / /// / / / /

~~~~~~~~~~~
|----------9-10-9-------|-----------------------|
|-(12)--12--------12----|--------------10-12-10-|
|--------------------11-|-(11)----(11)----------|
|-----------------------|-----------------------|
|-----------------------|-----------------------|
|-----------------------|-----------------------|
|
| ~~~~~~~~~~~
|-----------------------|-----------------------|
|-------------7---------|-----------------------|
|--(7)---7-9----9--7--7-|--(7)-----(7)--6--7--6-|
|-----------------------|-----------------------|
|-----------------------|-----------------------|
|-----------------------|-----------------------|


D5 E5 B5
| ||| | | | | | | | | | | | |
/ /// / / / / / / / / / / / /

|--------------------|----------------------|
|-(10)----(10)-8-7-8-|-(8)-7---7-(7)--------|
|--------------------|-------9-------9-7-7--|
|--------------------|----------------------|
|--------------------|----------------------|
|--------------------|----------------------|
|
| ~~~~~~~~~~~
|--------------------|----------------------|
|--------------------|----------------------|
|--(6)-----(6)-6-6-7-|-(7)-6---6-(6)--------|
|--------------------|-------9-------9-7-9--|
|--------------------|----------------------|
|--------------------|----------------------|


F#5 G5 A5
| | | | | | | | ||| | | | |
/ / / / / / / / /// / / / /

~~~~~~~~~~~
|---------9-10-9----/14-|-(14)----(14)-12-10-12-|
|------12--------12-----|-----------------------|
|-(7)-------------------|-----------------------|
|-----------------------|-----------------------|
|-----------------------|-----------------------|
|-----------------------|-----------------------|
|
| ~~~~~~~~~~~
|-----------------------|-----------------------|
|------------7----------|-----------------------|
|-------7-9----9--7---7-|--(7)-----(7)--6--7--6-|
|-(9)-------------------|-----------------------|
|-----------------------|-----------------------|
|-----------------------|-----------------------|


Dm
| ||| | | | | | | | | | | |
/ /// / / / / / / / / / / /

Gtrs II, III
~~~~~~~~~~~
|-(12)----(12)-10-9-10-|-(10)-9----9-(9)-------5--|
|----------------------|--------12-------12-10-6--|
|----------------------|-----------------------7--|
|----------------------|-----------------------0--|
|----------------------|--------------------------|
|----------------------|--------------------------|
|
| ~~~~~~~~~~~
|----------------------|--------------------------|
|----------------------|--------------------------|
|--(6)-----(6)---------|--------------------------|
|---------------9-7--9-|--(9)-7--5-7-(7)--5-------|
|----------------------|---------------------9----|
|----------------------|--------------------------|


Bridge 2:45
Dsus4 Dm
Gtrs II, III
PM-----| PM-----|
|-(5)-------------(5)-|-(5)-------------(5)-|
|-(6)--------------8--|-(8)--------------6--|
|-(7)--------------7--|-(7)--------------7--|
|-(0)--0--0-0-(0)--0--|-(0)--0--0-0-(0)--0--|
|---------------------|---------------------|
|---------------------|---------------------|


Dsus4 Bb
PM-----| PM-----|
|-(5)---------------|-------------------|
|-(6)-------------8-|-(8)-------------6-|
|-(7)-------------7-|-(7)-------------7-|
|-(0)--0--0-0-(0)-0-|-(0)--0--0-0-(0)-8-|
|-------------------|-------------------|
|-------------------|-------------------|


Bb6 F5 C Dm
|--------------------|--------------------|--------------------|-----------5--|
|-(6)-------------8--|-(8)-------------6--|-(6)-------------5--|-(5)-------6--|
|-(7)-------------7--|-(7)-------------5--|-(5)-------------5--|-(5)-------7--|
|-(8)--0--0-0-(0)-8--|-(8)--0--0-0-(0)-3--|-(3)-------------5--|-(5)-------0--|
|--------------------|--------------------|------3--3-3-(3)----|--------------|
|--------------------|--------------------|--------------------|--------------|


Dsus4 Dm
PM-----| PM-----|
|-(5)-------------(5)-|-(5)-------------(5)-|
|-(6)--------------8--|-(8)--------------6--|
|-(7)--------------7--|-(7)--------------7--|
|-(0)--0--0-0-(0)--0--|-(0)--0--0-0-(0)--0--|
|---------------------|---------------------|
|---------------------|---------------------|


Dsus4 Bb
PM-----| PM-----|
|-(5)---------------|-------------------|
|-(6)-------------8-|-(8)-------------6-|
|-(7)-------------7-|-(7)-------------7-|
|-(0)--0--0-0-(0)-0-|-(0)--0--0-0-(0)-8-|
|-------------------|-------------------|
|-------------------|-------------------|


Bb6 F5 C D5
|--------------------|--------------------|--------------------|--------------|
|-(6)-------------8--|-(8)-------------6--|-(6)-------------5--|-(5)-------3--|
|-(7)-------------7--|-(7)-------------5--|-(5)-------------5--|-(5)-------2--|
|-(8)--0--0-0-(0)-8--|-(8)--0--0-0-(0)-3--|-(3)-------------5--|-(5)-------0--|
|--------------------|--------------------|------3--3-3-(3)----|--------------|
|--------------------|--------------------|--------------------|--------------|


Chorus 3:08
F5 Bb5 C5 G5
|-------------|-------------|-------------|-------------|
|-(3)-------6-|-(6)---------|-------------|-------------|
|-(2)-------5-|-(5)-------3-|-(3)-------5-|-(5)-------0-|
|-(0)-------3-|-(3)-------3-|-(3)-------5-|-(5)-------0-|
|-----------3-|-(3)-------1-|-(1)-------3-|-(3)---------|
|-------------|-------------|-------------|-------------|


Bb5 F5 C5 D5
|-------------|-------------|-------------|-----------------------------------|
|-------------|-------------|-------------|---------------------------------3-|
|-(0)-------3-|-(3)---------|-----------5-|-(5)-----------------------------2-|
|-(0)-------3-|-(3)-------3-|-(3)-------5-|-(5)-----------------------------0-|
|-----------1-|-(1)-------3-|-(3)-------3-|-(3)-------------------------------|
|-------------|-----------1-|-(1)---------|-----------------------------------|
|
| Gtr I
|-------------|-------------|-------------|------------10---------------------|
|-------------|-------------|-------------|-----/10-13------------------------|
|-------------|-------------|-------------|---------------12b14r(12)-10-------|
|-------------|-------------|-------------|-----------------------------12-12-|
|-------------|-------------|-------------|-----------------------------------|
|-------------|-------------|-------------|-----------------------------------|


F5 Bb5 C5 G5
|--------------|-------------|-------------|---------------------------------|
|--(3)---------|-------------|-------------|---------------------------------|
|--(2)---------|-----------3-|-(3)-------5-|-(5)---------------------------0-|
|--(0)-------3-|-(3)-------3-|-(3)-------5-|-(5)---------------------------0-|
|------------3-|-(3)-------1-|-(1)-------3-|-(3)-----------------------------|
|------------1-|-(1)---------|-------------|---------------------------------|
|
| ~~~~ ~~~~~~~
|--------------|-------------|-------------|-----15b17==(15)r-15-13-(13)-----|
|--------------|-------------|-------------|---------------------------------|
|--------------|-------------|-------------|---------------------------------|
|-(12)---------|-------------|-------------|---------------------------------|
|--------------|-------------|-------------|---------------------------------|
|--------------|-------------|-------------|---------------------------------|


Bb5 C5
|-------------|-------------|--------------------------------------|
|-------------|-------------|--------------------------------------|
|-(0)-------3-|-(3)-------5-|-(5)----------------------------------|
|-(0)-------3-|-(3)-------5-|-(5)----------------------------------|
|-----------1-|-(1)-------3-|-(3)----------------------------------|
|-------------|-------------|--------------------------------------|
|
|-------------|-------------|-----13-10-13-10-13-------------------|
|-------------|-------------|--------------------10-13-10----10----|
|-------------|-------------|-----------------------------12----12-|
|-------------|-------------|--------------------------------------|
|-------------|-------------|--------------------------------------|
|-------------|-------------|--------------------------------------|


|---------------------------------------------|
|---------------------------------------------|
|-(5)-----------------------------------------|
|-(5)-----------------------------------------|
|-(3)-----------------------------------------|
|---------------------------------------------|
|
|---------------------------------------------|
|---------------------------------------------|
|-10--12-10----10----10-12b14==(12)r(12)-10---|
|-----------12----12--------------------------|
|---------------------------------------------|
|---------------------------------------------|


Outro 3:30
D5 Bb5
Gtrs I, IV
|-------------------------|-----------------------------|
|-------------15----------|-----------------------------|
|----------14----------17-|-(17)-------15-(15)-12-14----|
|-12-14-15-------12-14----|------12-14---------------15-|
|-------------------------|-----------------------------|
|-------------------------|-----------------------------|
|
| Gtrs II, III
| PM---------------| PM-|
|-------------------------|-----------------------------|
|-------------------------|-----------------------------|
|-------------------------|-----------------------------|
|--7--7--7--7--7--7--7--3-|--(3)--3--3------3---3--3----|
|--5--5--5--5--5--5--5--1-|--(1)--1--1------1---1--1----|
|-------------------------|-----------------------------|


D5 C5
|-------------------------|-----------------------------|
|-------------15----------|-----------------------------|
|----------14----------17-|-(17)-------15-(15)-12-14----|
|-12-14-15-------12-14----|------12-14---------------15-|
|-------------------------|-----------------------------|
|-------------------------|-----------------------------|
|
| PM---------------| PM-|
|-------------------------|-----------------------------|
|-------------------------|-----------------------------|
|-------------------------|-----------------------------|
|--7--7--7--7--7--7--7--5-|--(5)--5--5------5---5--5----|
|--5--5--5--5--5--5--5--3-|--(3)--3--3------3---3--3----|
|-------------------------|-----------------------------|


D5 Bb5 C5
|-------------------------|-----------------------------|
|-------------15----------|-----------------------------|
|----------14----------17-|-(17)-------15-(15)-12-14----|
|-12-14-15-------12-14----|------12-14---------------15-|
|-------------------------|-----------------------------|
|-------------------------|-----------------------------|
|
| PM---------------| PM-|
|-------------------------|-----------------------------|
|-------------------------|-----------------------------|
|-------------------------|-----------------------------|
|--7--7--7--7--7--7--7--3-|--(3)--3--3------3---3--3--5-|
|--5--5--5--5--5--5--5--1-|--(1)--1--1------1---1--1--3-|
|-------------------------|-----------------------------|


|--------------------------|---------------------------|
|--------------15----------|---------------15----------|
|-----------14----14-------|------------14----14-------|
|-12--14-15----------15-12-|-(12)-14-15----------15-12-|
|--------------------------|---------------------------|
|--------------------------|---------------------------|
|
| PM---------------| PM------------|
|--------------------------|---------------------------|
|--------------------------|---------------------------|
|--------------------------|---------------------------|
|-(5)--5--5--5--5--5--5--5-|--(5)--5--5--5--5--5--5--5-|
|-(3)--3--3--3--3--3--3--3-|--(3)--3--3--3--3--3--3--3-|
|--------------------------|---------------------------|


D5
|---------------------------|--------------------------|-----*|
|---------------15----------|---------------15---------|-----*|
|------------14----14-------|------------14----14------|-----*|
|-(12)-14-15----------15-12-|-(12)-14-15----------15-0-|-----*|
|---------------------------|------------------------0-|-----*|
|---------------------------|--------------------------|-----*|
|
| PM---------------| PM------------|
|---------------------------|--------------------------|-----*|
|---------------------------|--------------------------|-----*|
|---------------------------|--------------------------|-----*|
|--(5)--5--5--5--5--5--5--5-|--(5)--5--5--5--5--5--5-7-|-----*|
|--(3)--3--3--3--3--3--3--3-|--(3)--3--3--3--3--3--3-5-|-----*|
|---------------------------|--------------------------|-----*|

Rapor Et
Eski 22 Şubat 2009, 00:22

Akor & Tab Bölümü (Gitar Akor ve Tabları Bölümü)

#4 (link)
king nothing
Ziyaretçi
king nothing - avatarı
Nickelback - Savin Me (Akor)

F C Dm **
Prison gates won’t open up for me On these hands and knees I’m crawling
F Am7 Dm
Oh, I reach for you
F C Dm **
Well I’m terrified of these four walls These iron bars can’t hold my soul in
F **/ C
All I need is you, Come please I’m calling
D ** Dm
And oh I scream for you, Hurry I’m falling, I'm falling

Chorus:
** C G Dm
Show me what it’s like To be the Last one standing
** C G Dm
And teach me wrong from right And I’ll show you What I can be
** C G Dm
And say it for me Say it to me And I’ll leave this life behind me
F C Dm
Say it if it’s worth saving Me


Verse 2: (same as 1)
F C Dm Am7
Heaven’s gates won’t open up for me, With these broken wings I’m falling
F Am7 Dm
And all I see is you

F C Dm Am7
These city walls ain’t got no love for me, I’m on the ledge of the eighteenth story
F ** Dm
And oh I scream for you, Come please I’m calling
F ** Dm
And all I need from you, Hurry I’m falling, I'm falling


Chorus:
** C G Dm
Show me what it’s like To be the Last one standing
** C G Dm
And teach me wrong from right And I’ll show you What I can be
** C G Dm
And say it for me Say it to me And I’ll leave this life behind me
F C Dm
Say it if it’s worth saving Me

Hurry I’m falling

Then
** C G Dm (x3)
** C Dm

** C Dm
And all I need is you, Come please I’m calling
** C Dm
And oh I scream for you, Hurry I’m falling I'm falling


Chorus:
** C G Dm
Show me what it’s like To be the Last one standing
** C G Dm
And teach me wrong from right And I’ll show you What I can be
** C G Dm
And say it for me Say it to me And I’ll leave this life behind me
F C Dm
Say it if it’s worth saving Me

Hurry I’m falling


G D A Dm
And say it for me Say it to me And I’ll leave this life behind me
G D Dm
Say it if it’s worth saving Me

Rapor Et
Eski 22 Şubat 2009, 00:28

Akor & Tab Bölümü (Gitar Akor ve Tabları Bölümü)

#5 (link)
king nothing
Ziyaretçi
king nothing - avatarı
Blind Guardian - bard song ( tab )


Corrections are welcome!


Rhy. Fig 1
First time Second time
E--0----------------------------------|-----------------|----------------
B-----3--1--0--0--1--0-----0----------|-1--3--1--0--1---|----------------
G-----------------------0-----2--0----|-----------------|--2-------------
D-------------------------------------|-----------------|----------------
A--0----------------------------------|-0---------------|--0-------------
E--------------3-----------0----------|-----------------|----------------



W/ Rhy Fig 1

Lead Guitar

E--8--10--8--10--7-----7-------------------7--8--7-----8--10--8--10--7----
B-------------------------10--8-----8--10---------------------------------
G-------------------------------------------------------------------------
D-------------------------------------------------------------------------
A-------------------------------------------------------------------------
E-------------------------------------------------------------------------

- -
E--7-------------------7-8-7----------------------------------------------
B-----10--8-----8--10--------10-------------------------------------------
G-------------------------------------------------------------------------
D-------------------------------------------------------------------------
A-------------------------------------------------------------------------
E-------------------------------------------------------------------------


Start Singing

E---0---------------------------------
B--------3---1---0----0---1---0---1---
G-------------------------------------
D-------------------------------------
A---0-----------------------------0---
E----------------3----0---------------

Now you' re ..............




------------------------------------------------------------------------------

.
.
.
.
.
. .

I'm waiting you with Darkness, my Bride, it's to late to repent,
Enjoy the Darkness...

Rapor Et
Eski 22 Şubat 2009, 00:34

Akor & Tab Bölümü (Gitar Akor ve Tabları Bölümü)

#6 (link)
king nothing
Ziyaretçi
king nothing - avatarı
mor ve ötesi - bir derdim var (akor)


Bm
bir derdim var artık tutamam içimde
A
gitsem nereye kadar

kalsam neye yarar
Em
hiç anlatamadım, hiç anlamadılar
Bm
herkes neden düşman herkes neden düşman
A
unuttuk hepsini, nuhun nefesini
Em G A
gelme yanıma sen başkasın ben başka

Solo Bm G Bm G

Bm
bir derdim var artık tutamam içimde
A
gitsem nereye kadar

kalsam neye yarar
Em
hiç anlatamadım, hiç anlamadılar

D F#
bak bu son perde oyun yok bundan sonra
Bm G
ışık yok hiçbir şey yok
Em G Em G A Bm
bir derdim var bir derdim var bir derdim var artık tutamam içimde.

Rapor Et
Eski 22 Şubat 2009, 00:39

Akor & Tab Bölümü (Gitar Akor ve Tabları Bölümü)

#7 (link)
king nothing
Ziyaretçi
king nothing - avatarı
Metallıca-Ain't My Bitch (tab)


Ain't My Bitch All guitars down 1/2 step
1)
Db--------------------------------5--------------------------
Ab--5-7-7-5---5-6-7-7-7--5--7-7-7---7--5-7-7-7-7-7-7--5-7-7-5
Eb--0-0-0-3---0-0-0-0-0--0--0-0-0------0-0-0-0-0-0-0--0-0-0-3
pm..... pm.................... .....................
opening and main riff


2)
Gb----------------------5------------------------------
Db--5-6-7-7-7--5--7-7-7---7--5-7-7-7-7-7-7--5-7-7-5----
Ab--0-0-0-0-0--0--0-0-0------0-0-0-0-0-0-0--0-0-0-5---2
Eb------------------------------------------------3---0
pm..................... ..................... let ring w/ flange
"Head Strong..." "before"


3)
Db-----------------------------------------4------
Ab--(2)------------------------------------2--7--5
Eb--(0)-----------------------0-0-0-0-0-0-----5--3
pm...........
"you arrived......kiss your ass goodbye Dragging me down..."


4)
Db----------------------------- --------
Ab--5-4-3---------------------- -5-4-3-2
Eb--3-2-1-0-0-0-0-3-0-0-0-0-3-3 -3-2-1-0
pm....................
You're so useless It ain't my bitch!


5a) 5b)
eb--------------- ------------------
Bb--------------- ------------------
Gb----------2---- ---------2--------
Db----2-5-2---5-2 3 times ---2-5-2---5-2-5-5 then the first one
Ab--5------------ -5---------------- and play
Eb--------------- ------------------

5c)
eb-------------------
Bb------------------- This is a straight E pentatonic progression
Gb----------2-4-2---- Kirk plays this higher before the solo.
Db----2-5-2-------5-2
Ab--5----------------
Eb-------------------

5d)
eb-----------------------------------
Bb-------------10--------------------
Gb------9-12-9----9-12-9----9-12-9-12
Db---12------------------12----------
Ab-----------------------------------
Eb-----------------------------------


6)
Gb--2--4--2-------2--4--2 then about -4--6--4-------4--6--4
Db--2--4--2-------2--4--2 1/2 way -4--6--4-------4--6--4
Ab-----------4-4--------- through ----------6-6---------
Eb----------------------- up a step ----------------------
pm....................
solo riff


____________________
(Solo by Acosta®©)
Solo: (use slide bar)
Eb|--------------------------------------------------------------------------|
Bb|-----------------------------------------11--(11)---(11)-/11--12--13--/14|
Gb|---/11---119------11----------(11)9/11-----(11)---(11)-----------------|
Db|---/11---------11---------------------------------------------------------|
Ab|--------------------------------------------------------------------------|
Eb|--------------------------------------------------------------------------|

Eb|------------14-----------14----------14-----------14----------14----------|
Bb|---1412/14----1412/14-----1412/14-----1412/14----1412/14----1412/14-|
Gb|--------------------------------------------------------------------------|
Db|--------------------------------------------------------------------------|
Ab|--------------------------------------------------------------------------|
Eb|--------------------------------------------------------------------------|

Eb|---14----14/17----(17)---------16------16-------16-----16-------------19-|
Bb|---------14/----------------/16----16---------16----16-------16----16-----|
Gb|--------------------------------------------------------------------------|
Db|--------------------------------------------------------------------------|
Ab|--------------------------------------------------------------------------|
Eb|--------------------------------------------------------------------------|

Eb|--(19)----------------------------------------------------11/14----(14)-|
Bb|---19---------/12-------------(12)--/75---97---1211------------------|
Gb|---------/9--------------------------------------------------------------|
Db|--------------------------------------------------------------------------|
Ab|--------------------------------------------------------------------------|
Eb|--------------------------------------------------------------------------|

Eb|----------------------11/14--14/19---/19-----------------/19-/12------|
Bb|---/75---97---1211-------------------------------------------------/12|
Gb|--------------------------------------------------------------------------|
Db|--------------------------------------------------------------------------|
Ab|--------------------------------------------------------------------------|
Eb|--------------------------------------------------------------------------|


Eb|-------------------------------------------|
Bb|-7--(7)/9---------------------------(9)----|
Gb|-7--(7)/9---------------------------(9)----|
Db|-------------------------------------------|
Ab|-------------------------------------------|
Eb|--------------------------

Rapor Et
Eski 22 Şubat 2009, 00:48

Akor & Tab Bölümü (Gitar Akor ve Tabları Bölümü)

#8 (link)
king nothing
Ziyaretçi
king nothing - avatarı
Linkin Park - From The Inside (akor)

Linkin Park – From the Inside

Tabbed by Uchiha 23

B|-9---9---7---| (repeat 4x)
G|---6---6---6-|

G|-6---9-------------| (repeat 2x)
D|-6---9---7---4-6---|
A|-4---7---7---4-6---| C#m
E|---------5---2-4---|

B A F#m
I don't know who to trust your surprise
G# C#m
(Everyone feels so far away from me)
B A F#m G#
Heavy thoughts sift through dust and the lies
C#m B
(Trying not to break but I'm so tired of this deceit)
A F#m G#
(Every time I try to make myself get back up on my feet)
C#m
(All I ever think about is this)
B
(All the tiring time between)
A F#m
(And how trying to put my trust in you just takes so much out of
G#
me)

[Chorus]
C#m B A F#m G# C#m
Take everything from the inside and throw it all away
B A F#m G# C#m
Cuz I swear for the last time I won't trust myself with you

B A F#m
Tension is building inside steadily
G# C#m
(Everyone feels so far away from me)
B A F#m G#
Heavy thoughts forcing their way out of me
C#m B
(Trying not to break but I'm so tired of this deceit)
A F#m G#
(Every time I try to make myself get back up on my feet)
C#m
(All I ever think about is this)
B
(All the tiring time between)
A F#m
(And how trying to put my trust in you just takes so much out of
G#
me)

[Chorus]
C#m B A F#m G# C#m
Take everything from the inside and throw it all away
B A F#m G# C#m
Cuz I swear for the last time I won't trust myself with you

You
You
I won't waste myself on you
You
You
Waste myself on you
You
You

C#m B A F#m G# C#m
I'll take everything from the inside and throw it all away
B A F#m G# C#m
Cuz I swear for the last time I won't trust myself with you
B A F#m G# C#m
Everything from the inside and just throw it all away
B A F#m G# C#m
Cuz I swear for the last time I won't trust myself with you
You
You

End in C#m

Rapor Et
Eski 22 Şubat 2009, 00:55

Akor & Tab Bölümü (Gitar Akor ve Tabları Bölümü)

#9 (link)
king nothing
Ziyaretçi
king nothing - avatarı
Pentagram - Anatolia ( Tab )

—————————————————————————
B —————————————————————————
G —————————————————————————
D —————————————————————————
A —2-1-2———-2-1—1-2-4——2-1-2———————————–
E -0——-3-2—-0—–3———-0——-3-2—-0-3-2-0-2-3-0————–

e —————————————————————————
B —————————————————————————
G —————————————————————————
D —————————————————————————
A —2-1-2———-2-1—1-2-4——2-1-2———————————–
E -0——-3-2—-0—–3———-0——-3-2—-0-3-2-0-2-3-0————–

e —————————————————————————
B —————————————————————————
G —————————————————————————
D —————————————————————————
A —2-1-2———-2-1—1-2-4——2-1-2————–1-2-4-2^4^2-1-2-4—-
E -0——-3-2—-0—–3———-0——-3-2—-0-2-3———————-

e —————————————————————————
B —————————————————————————
G —————————————————————————
D —————————————————————————
A —2-1-2———-2-1—1-2-4——2-1-2————–1-2-4-2^4^2-1——–
E -0——-3-2—-0—–3———-0——-3-2—-0-2-3—————3-2—-

e ————————————————-
B ————————————————-
G ————————————————-
D —————————————–1-2—–
A —————–1-2—————–2-3———
E -0-2-3-2-5-0-2-3———0-2-3-2-5-0————-

e ————————————————-
B ————————————————-
G ————————————————-
D —————————————–1-2—–
A —————–1-2—————–2-3———
E -0-2-3-2-5-0-2-3———0-2-3-2-5-0————-

e —————————————————————————
B —————————————————————————
G —————————————————————————
D –2–2-1-2——–2–2-1-2——–2–2-1-2——–2–2-1-2—————–
A –0——–3——0—————0——–3——0————————
E —————————————————————————

e —————————————————————————
B —————————————————————————
G —————————————————————————
D –2–2-1-2——–2–2-1-2——–2–2-1-2——–2–5-4-5—————–
A –0——–3——0—————0——–3——0————————
E —————————————————————————


Rapor Et
Eski 23 Şubat 2009, 12:50

Akor & Tab Bölümü (Gitar Akor ve Tabları Bölümü)

#10 (link)
king nothing
Ziyaretçi
king nothing - avatarı
Almora-Kaf Dağının Ardında-akor

Bm G
gökyüzünün perdeleri,
A Bm
açıl desem açılır mı?
D Em
masalların ülkesine
G A Bm
sonbaharda kar yağar mı?
G
ak saçların vardı senin,
A Bm
güneş gibi bir gülüşün
D Em
senin için ağlamıştı
G A Bm
ırmakları gökyüzünün


D A
şimdi buradan çok uzakta,
Em Bm
rüzgarların tahtındasın
D A Em
belki masal diyarlarda,
G A Bm
kaf dağının ardındasın
D A
uyan, uyan uykulardan,
Em Bm
sonsuz sırlar arasından
D A Em
gökyüzünün kapısından
G A Bm
bana yıldız toplar mısın

Rapor Et
Cevap Yaz Yeni Konu Aç
Hızlı Cevap
Kullanıcı Adı:
Önce bu soruyu cevaplayın
Mesaj:








Yeni Soru
Sayfa 0.360 saniyede (87.71% PHP - 12.29% MySQL) 16 sorgu ile oluşturuldu
Şimdi ücretsiz üye olun!
Saat Dilimi: GMT +3 - Saat: 15:22
  • YASAL BİLGİ

  • İçerik sağlayıcı paylaşım sitelerinden biri olan MsXLabs.org forum adresimizde T.C.K 20.ci Madde ve 5651 Sayılı Kanun'un 4.cü maddesinin (2).ci fıkrasına göre tüm kullanıcılarımız yaptıkları paylaşımlardan sorumludur. MsXLabs.org hakkında yapılacak tüm hukuksal şikayetler buradan iletişime geçilmesi halinde ilgili kanunlar ve yönetmelikler çerçevesinde en geç 3 (üç) iş günü içerisinde MsXLabs.org yönetimi olarak tarafımızdan gerekli işlemler yapıldıktan sonra size dönüş yapılacaktır.
  • » Site ve Forum Kuralları
  • » Gizlilik Sözleşmesi